La pentatónica de blues

Tags: • 

Ando con sueño, así que se me ocurrió hacer un pequeño artículo sobre la famosa pentatónica de blues.

La principal variante, que ocupa casi todo guitarrista cuando quiere improvisar algo, es la menor, cuya secuencia es I-IIIm-IV-V-VIIm. En notas, si estamos en A, sería A-C-D-E-G, lo que en tablatura sería

--------------------5--
----------------5-8----
------------5-7--------
--------5-7------------
----5-7----------------
5-8--------------------

La secuencia en mayor es lo mismo, pero usando tercera mayor. En A:

--------------------5--
----------------5-8----
------------6-7--------
--------5-7------------
--4-5-7----------------
5----------------------

Más allá de la secuencia de notas, el truco para obtener un sonido blusero es hacer bind o levantamientos de cuerda. Hay tres que son fundamentales. Los dos primeros son el de IV a V (completo) y el de VIIm a la tónica (completo), el cual generalmente se hace tocando la primera nota en una cuerda, levantándola hasta llegar a la siguiente, mientras se toca la siguiente nota en la cuerda siguiente, creando un efecto muy típico

----------------5----5---
-----5---5--8-b(10)-(10)-
-7-b(9)-(9)--------------
-------------------------
-------------------------
-------------------------

El otro levantamiento es hacer una subida de un cuarto de tono desde la tercera menor hacia la tercera mayor, pero sin llegar a esta. Generalmente es bueno ocupar este efecto como forma de acento antes de llegar a la tónica o hacia la quinta

--------------------------------------
-----------------5-8-5----------------
-------5-b(5:)-5---------5-b(5:)-5----
-7-5-7------------------------------7-
--------------------------------------
--------------------------------------